0
SECTION
2
HEADER
9
$INSUNITS
70
4
9
$ACADVER
1
AC1014
9
$HANDSEED
5
FFFF
0
ENDSEC
0
SECTION
2
TABLES
0
TABLE
2
VPORT
5
8
100
AcDbSymbolTable
0
ENDTAB
0
TABLE
2
LTYPE
5
5
100
AcDbSymbolTable
0
LTYPE
5
14
100
AcDbSymbolTableRecord
100
AcDbLinetypeTableRecord
2
BYBLOCK
70
0
0
LTYPE
5
15
100
AcDbSymbolTableRecord
100
AcDbLinetypeTableRecord
2
BYLAYER
70
0
0
ENDTAB
0
TABLE
2
LAYER
5
2
100
AcDbSymbolTable
70
2
0
LAYER
5
50
100
AcDbSymbolTableRecord
100
AcDbLayerTableRecord
2
0
70
0
6
CONTINUOUS
0
ENDTAB
0
TABLE
2
STYLE
5
3
100
AcDbSymbolTable
70
1
0
STYLE
5
11
100
AcDbSymbolTableRecord
100
AcDbTextStyleTableRecord
2
STANDARD
70
0
0
ENDTAB
0
TABLE
2
VIEW
5
6
100
AcDbSymbolTable
70
0
0
ENDTAB
0
TABLE
2
UCS
5
7
100
AcDbSymbolTable
70
0
0
ENDTAB
0
TABLE
2
APPID
5
9
100
AcDbSymbolTable
70
2
0
APPID
5
12
100
AcDbSymbolTableRecord
100
AcDbRegAppTableRecord
2
ACAD
70
0
0
ENDTAB
0
TABLE
2
DIMSTYLE
5
A
100
AcDbSymbolTable
70
1
0
ENDTAB
0
TABLE
2
BLOCK_RECORD
5
1
100
AcDbSymbolTable
70
1
0
BLOCK_RECORD
5
1F
100
AcDbSymbolTableRecord
100
AcDbBlockTableRecord
2
*MODEL_SPACE
0
BLOCK_RECORD
5
1B
100
AcDbSymbolTableRecord
100
AcDbBlockTableRecord
2
*PAPER_SPACE
0
ENDTAB
0
ENDSEC
0
SECTION
2
BLOCKS
0
BLOCK
5
20
100
AcDbEntity
100
AcDbBlockBegin
2
*MODEL_SPACE
0
ENDBLK
5
21
100
AcDbEntity
100
AcDbBlockEnd
0
BLOCK
5
1C
100
AcDbEntity
100
AcDbBlockBegin
2
*PAPER_SPACE
0
ENDBLK
5
1D
100
AcDbEntity
100
AcDbBlockEnd
0
ENDSEC
0
SECTION
2
ENTITIES
0
SPLINE
5
100
100
AcDbEntity
8
0
100
AcDbSpline
70
1064
71
5
72
86
73
80
74
0
42
0.000000001
43
0.0000000001
44
0.0000000001
40
0
40
0
40
0
40
0
40
0
40
0
40
0.013333333333333334
40
0.026666666666666668
40
0.040000000000000001
40
0.053333333333333337
40
0.066666666666666666
40
0.080000000000000002
40
0.093333333333333338
40
0.10666666666666667
40
0.12000000000000001
40
0.13333333333333333
40
0.14666666666666667
40
0.16
40
0.17333333333333334
40
0.18666666666666668
40
0.20000000000000001
40
0.21333333333333335
40
0.22666666666666668
40
0.24000000000000002
40
0.25333333333333335
40
0.26666666666666666
40
0.27999999999999997
40
0.29333333333333328
40
0.30666666666666659
40
0.3199999999999999
40
0.3333333333333332
40
0.34666666666666651
40
0.35999999999999982
40
0.37333333333333313
40
0.38666666666666644
40
0.39999999999999974
40
0.41333333333333305
40
0.42666666666666636
40
0.43999999999999967
40
0.45333333333333298
40
0.46666666666666629
40
0.47999999999999959
40
0.4933333333333329
40
0.50666666666666627
40
0.51999999999999957
40
0.53333333333333288
40
0.54666666666666619
40
0.5599999999999995
40
0.57333333333333281
40
0.58666666666666611
40
0.59999999999999942
40
0.61333333333333273
40
0.62666666666666604
40
0.63999999999999935
40
0.65333333333333266
40
0.66666666666666596
40
0.67999999999999927
40
0.69333333333333258
40
0.70666666666666589
40
0.7199999999999992
40
0.7333333333333325
40
0.74666666666666581
40
0.75999999999999912
40
0.77333333333333243
40
0.78666666666666574
40
0.79999999999999905
40
0.81333333333333235
40
0.82666666666666566
40
0.83999999999999897
40
0.85333333333333228
40
0.86666666666666559
40
0.87999999999999889
40
0.8933333333333322
40
0.90666666666666551
40
0.91999999999999882
40
0.93333333333333213
40
0.94666666666666544
40
0.95999999999999874
40
0.97333333333333205
40
0.98666666666666536
40
1
40
1
40
1
40
1
40
1
40
1
10
-271.29405194667265
20
8.2210318771718978
30
0
10
-280.69187754479003
20
13.404986734653328
30
0
10
-298.70149245446373
20
23.369431198245245
30
0
10
-323.35780392150718
20
37.105700810849136
30
0
10
-351.51531665733921
20
52.999243603461082
30
0
10
-378.90489940004147
20
68.866389055423113
30
0
10
-398.66716081557843
20
80.849090984507868
30
0
10
-411.17195046085442
20
89.183037487128729
30
0
10
-417.04648273187945
20
94.266798383519529
30
0
10
-417.23820047567392
20
96.701332956961664
30
0
10
-413.08930203142012
20
97.337075773669397
30
0
10
-406.38478197719974
20
97.30376668341799
30
0
10
-399.47431728832657
20
98.088695207571305
30
0
10
-394.6143103460256
20
101.08733944298187
30
0
10
-392.92167438968522
20
106.87817607629553
30
0
10
-394.06828157588166
20
115.03617598916271
30
0
10
-397.16597307342181
20
124.80701048451979
30
0
10
-401.54117888737551
20
135.71611193325006
30
0
10
-406.99443024598287
20
147.74082452235382
30
0
10
-413.5426484003363
20
161.05809226798883
30
0
10
-421.32133889927525
20
175.92386205062996
30
0
10
-430.41373618766374
20
192.49010784097231
30
0
10
-440.72757624728843
20
210.66713735641036
30
0
10
-451.81099144555077
20
229.92029699141523
30
0
10
-462.85013342394473
20
249.27232411772462
30
0
10
-472.85112472845003
20
267.51705383078246
30
0
10
-480.77494611890438
20
283.37851623643991
30
0
10
-485.6872800491293
20
295.68850543936918
30
0
10
-486.91152028949386
20
303.56471778339647
30
0
10
-484.15845110407236
20
306.56925258968994
30
0
10
-477.72370005194205
20
304.9268105391003
30
0
10
-468.2974004574221
20
299.39945718110272
30
0
10
-456.6434299588924
20
291.04527950525789
30
0
10
-443.31889827925465
20
281.01439307949613
30
0
10
-428.73396872219325
20
270.49092326362609
30
0
10
-413.22404662352028
20
260.64353111619494
30
0
10
-397.11501257734255
20
252.57260605551204
30
0
10
-380.79547215362413
20
247.2582702385769
30
0
10
-364.77656549992781
20
245.50918312806476
30
0
10
-349.78020841036135
20
247.90768658827642
30
0
10
-336.73946757077863
20
254.76627582932238
30
0
10
-326.59594316583264
20
266.1075643062668
30
0
10
-320.14342396690415
20
281.64199540590755
30
0
10
-317.8418376856211
20
300.74010781321891
30
0
10
-319.66920496713971
20
322.42041357694552
30
0
10
-324.89227243148423
20
345.29569943911747
30
0
10
-332.17002117233642
20
367.69613075244541
30
0
10
-339.86423714197815
20
387.90269382470194
30
0
10
-346.29114958213211
20
404.35022277271202
30
0
10
-349.98903049841419
20
415.83670831197247
30
0
10
-349.99812738588508
20
421.74509370794823
30
0
10
-346.09122833315121
20
422.22564200756261
30
0
10
-339.14170459513031
20
418.48620948116383
30
0
10
-330.58683196249535
20
412.36929056567419
30
0
10
-321.7329441039937
20
405.7940554700732
30
0
10
-312.99285780992363
20
400.17026899401878
30
0
10
-304.1141949247201
20
396.40866982452292
30
0
10
-294.66330020851149
20
395.08413214424024
30
0
10
-284.3919942325889
20
396.53694160016045
30
0
10
-273.72450273542967
20
401.02028269306152
30
0
10
-263.53125759038602
20
408.63465997795345
30
0
10
-254.78041900866037
20
419.22739234435147
30
0
10
-248.23666137540727
20
432.30727290990615
30
0
10
-244.12851457072961
20
446.94419407123058
30
0
10
-241.86084129029456
20
461.69781554862732
30
0
10
-240.36351728068684
20
474.99009939612677
30
0
10
-238.41432020231966
20
485.46362024715131
30
0
10
-234.96066759382867
20
492.32983619240252
30
0
10
-229.46633710089003
20
495.75825264471433
30
0
10
-222.17811927755562
20
497.14626006275228
30
0
10
-213.75557833293132
20
498.47100318706316
30
0
10
-204.93434311049828
20
501.67888655829421
30
0
10
-196.24263327788583
20
508.18332297621293
30
0
10
-188.06458452324893
20
519.00318582038926
30
0
10
-180.65213224661804
20
534.80720986147526
30
0
10
-174.15694105411097
20
555.99482037469488
30
0
10
-169.75429353163315
20
577.40777549748157
30
0
10
-166.9096670498688
20
596.0057831653769
30
0
10
-165.21645082176605
20
609.53223884170268
30
0
10
-164.42064366858415
20
616.57741375719058
30
0
0
SPLINE
5
101
100
AcDbEntity
8
0
100
AcDbSpline
70
1064
71
5
72
51
73
45
74
0
42
0.000000001
43
0.0000000001
44
0.0000000001
40
0
40
0
40
0
40
0
40
0
40
0
40
0.025000000000000001
40
0.050000000000000003
40
0.075000000000000011
40
0.10000000000000001
40
0.125
40
0.14999999999999999
40
0.17499999999999999
40
0.19999999999999998
40
0.22499999999999998
40
0.24999999999999997
40
0.27499999999999997
40
0.29999999999999999
40
0.32500000000000001
40
0.35000000000000003
40
0.37500000000000006
40
0.40000000000000008
40
0.4250000000000001
40
0.45000000000000012
40
0.47500000000000014
40
0.50000000000000011
40
0.52500000000000013
40
0.55000000000000016
40
0.57500000000000018
40
0.6000000000000002
40
0.62500000000000022
40
0.65000000000000024
40
0.67500000000000027
40
0.70000000000000029
40
0.72500000000000031
40
0.75000000000000033
40
0.77500000000000036
40
0.80000000000000038
40
0.8250000000000004
40
0.85000000000000042
40
0.87500000000000044
40
0.90000000000000047
40
0.92500000000000049
40
0.95000000000000051
40
0.97500000000000053
40
1
40
1
40
1
40
1
40
1
40
1
10
-164.42064366858415
20
616.57741375719058
30
0
10
-164.30623718339649
20
608.57577509563487
30
0
10
-163.88665405263109
20
593.38054173872854
30
0
10
-162.68496324225637
20
573.01183736784174
30
0
10
-159.93695970903369
20
550.70667371062325
30
0
10
-154.64126576326851
20
530.78700802461265
30
0
10
-147.64438712289856
20
518.39649389914973
30
0
10
-139.27314006363238
20
512.63466770554635
30
0
10
-130.08483394762828
20
511.95501406466298
30
0
10
-120.91741048781432
20
514.01845482848489
30
0
10
-112.97838086426989
20
515.45174874702127
30
0
10
-107.40052877125329
20
512.84811971595741
30
0
10
-104.63965487678828
20
504.10465738802151
30
0
10
-104.15923558543406
20
489.18014032785806
30
0
10
-104.83166299805546
20
469.43713522700887
30
0
10
-105.20237706977419
20
447.24763863796034
30
0
10
-103.81813312695954
20
425.49184210526266
30
0
10
-99.500181049385617
20
407.12417068977254
30
0
10
-91.7105263151999
20
394.66487574093782
30
0
10
-80.563372074258425
20
389.93134801812494
30
0
10
-66.610513091591187
20
393.89324858101509
30
0
10
-50.701724476222623
20
406.51948309622804
30
0
10
-33.803333546959308
20
426.54626467045046
30
0
10
-16.902566674463227
20
451.68980317717103
30
0
10
-0.93964810300399004
20
479.06601807924829
30
0
10
13.267848445874549
20
505.5389691747626
30
0
10
25.099310511316798
20
528.10120870151195
30
0
10
34.203666972230323
20
544.23128865141553
30
0
10
40.581307952620989
20
552.28435284647571
30
0
10
44.646248943147491
20
551.82183423081915
30
0
10
47.344608917680738
20
544.10528269786141
30
0
10
49.883235435235989
20
531.49314868668046
30
0
10
53.306700228723933
20
516.45284772511002
30
0
10
58.245519697715942
20
500.94489032540014
30
0
10
65.045441138413821
20
486.56047374642833
30
0
10
73.833252488116131
20
474.53515766006456
30
0
10
84.603625104667685
20
465.80910145355335
30
0
10
97.3024664077669
20
461.06627550356046
30
0
10
111.89157488703026
20
460.78036446140413
30
0
10
128.33867408441299
20
465.25247303242116
30
0
10
146.6206348780062
20
474.65032876529381
30
0
10
162.70122346645022
20
486.16678754991233
30
0
10
175.57608643320933
20
497.05927507517106
30
0
10
184.5209189242259
20
505.32219839005057
30
0
10
189.08373317495364
20
509.70397638465772
30
0
0
SPLINE
5
102
100
AcDbEntity
8
0
100
AcDbSpline
70
1064
71
5
72
21
73
15
74
0
42
0.000000001
43
0.0000000001
44
0.0000000001
40
0
40
0
40
0
40
0
40
0
40
0
40
0.10000000000000001
40
0.20000000000000001
40
0.30000000000000004
40
0.40000000000000002
40
0.5
40
0.59999999999999998
40
0.69999999999999996
40
0.79999999999999993
40
0.89999999999999991
40
1
40
1
40
1
40
1
40
1
40
1
10
526.14604013900146
20
24.663095631515692
30
0
10
524.09462031025669
20
24.042669764318418
30
0
10
520.11828050476288
20
22.708896584282492
30
0
10
514.53328260719729
20
20.429463475527534
30
0
10
507.85802350169092
20
16.82357799340258
30
0
10
500.88240140819539
20
11.31101428508452
30
0
10
495.38037172780628
20
4.7160118612381279
30
0
10
491.4449432980586
20
-3.0297496398050194
30
0
10
489.07760452395684
20
-11.927363537467755
30
0
10
488.17125932911324
20
-21.898161579730285
30
0
10
488.59458523777914
20
-32.845679825371334
30
0
10
489.90004505337151
20
-42.313864177435633
30
0
10
491.38680276404671
20
-49.787910117552869
30
0
10
492.59988798465145
20
-54.933615626907397
30
0
10
493.26191263031387
20
-57.547223140203279
30
0
0
SPLINE
5
103
100
AcDbEntity
8
0
100
AcDbSpline
70
1064
71
5
72
51
73
45
74
0
42
0.000000001
43
0.0000000001
44
0.0000000001
40
0
40
0
40
0
40
0
40
0
40
0
40
0.025000000000000001
40
0.050000000000000003
40
0.075000000000000011
40
0.10000000000000001
40
0.125
40
0.14999999999999999
40
0.17499999999999999
40
0.19999999999999998
40
0.22499999999999998
40
0.24999999999999997
40
0.27499999999999997
40
0.29999999999999999
40
0.32500000000000001
40
0.35000000000000003
40
0.37500000000000006
40
0.40000000000000008
40
0.4250000000000001
40
0.45000000000000012
40
0.47500000000000014
40
0.50000000000000011
40
0.52500000000000013
40
0.55000000000000016
40
0.57500000000000018
40
0.6000000000000002
40
0.62500000000000022
40
0.65000000000000024
40
0.67500000000000027
40
0.70000000000000029
40
0.72500000000000031
40
0.75000000000000033
40
0.77500000000000036
40
0.80000000000000038
40
0.8250000000000004
40
0.85000000000000042
40
0.87500000000000044
40
0.90000000000000047
40
0.92500000000000049
40
0.95000000000000051
40
0.97500000000000053
40
1
40
1
40
1
40
1
40
1
40
1
10
493.26191263031387
20
-57.547223140203279
30
0
10
489.89445209114427
20
-57.01604420287839
30
0
10
483.23463346244193
20
-56.25546439292367
30
0
10
473.47022989511584
20
-56.019923105725489
30
0
10
460.90198417053932
20
-57.518418578406042
30
0
10
446.02616033409839
20
-62.372812039016452
30
0
10
432.22634217580446
20
-70.07174287066897
30
0
10
419.98763686862833
20
-80.325575888335919
30
0
10
410.10646004824906
20
-92.641293420422357
30
0
10
403.80673973378038
20
-106.2559070567017
30
0
10
402.26839046295743
20
-120.23387519949051
30
0
10
406.02109043337532
20
-133.586815864953
30
0
10
414.49533797173211
20
-145.38128296789813
30
0
10
425.23726918479673
20
-154.86035056173432
30
0
10
434.24956293994489
20
-161.52739319762668
30
0
10
437.6689016516757
20
-165.18495167241426
30
0
10
433.1217300628893
20
-165.98865047023324
30
0
10
421.16127044534124
20
-164.4908714249915
30
0
10
404.1552922523116
20
-161.4625786735115
30
0
10
385.20776394035857
20
-157.70991301910578
30
0
10
367.16954421044807
20
-153.91272874951136
30
0
10
351.37114381887261
20
-150.40600285790549
30
0
10
337.56744117711548
20
-147.20099973055278
30
0
10
324.66434063933769
20
-144.15851032531526
30
0
10
311.2295421214618
20
-141.12300604919946
30
0
10
296.04046592762967
20
-138.05676557765182
30
0
10
278.73959137434417
20
-135.21367725898023
30
0
10
259.92355953202599
20
-133.12980544169028
30
0
10
240.75229692366236
20
-132.460652714221
30
0
10
222.70329988275012
20
-133.86547578672437
30
0
10
207.2592059075464
20
-137.86713024032653
30
0
10
195.64462202716513
20
-144.73396733703433
30
0
10
188.48792851280689
20
-154.31953398138023
30
0
10
185.91956896075061
20
-166.16182768385013
30
0
10
187.77421838666814
20
-179.64574578736503
30
0
10
193.75269066055398
20
-194.14006524318123
30
0
10
203.60822521639864
20
-209.15261552049199
30
0
10
217.14777383287077
20
-224.31819934410171
30
0
10
234.22391474726703
20
-239.37745255689521
30
0
10
254.72992270045393
20
-254.15931687154585
30
0
10
278.59344885135988
20
-268.56239867473369
30
0
10
300.33526149924649
20
-279.74220040990667
30
0
10
318.12320014631109
20
-287.92728236916173
30
0
10
330.63963630588387
20
-293.29530841481949
30
0
10
337.06230696404782
20
-295.95714757818831
30
0
0
SPLINE
5
104
100
AcDbEntity
8
0
100
AcDbSpline
70
1064
71
5
72
21
73
15
74
0
42
0.000000001
43
0.0000000001
44
0.0000000001
40
0
40
0
40
0
40
0
40
0
40
0
40
0.10000000000000001
40
0.20000000000000001
40
0.30000000000000004
40
0.40000000000000002
40
0.5
40
0.59999999999999998
40
0.69999999999999996
40
0.79999999999999993
40
0.89999999999999991
40
1
40
1
40
1
40
1
40
1
40
1
10
337.06230696404782
20
-295.95714757818831
30
0
10
334.90866296712875
20
-296.01218508460255
30
0
10
330.7761570566222
20
-296.24815538650864
30
0
10
325.10176077413337
20
-296.97980847143612
30
0
10
318.60173716393251
20
-298.72306760392166
30
0
10
312.36116643694885
20
-302.25951453553012
30
0
10
308.13119431921689
20
-307.24419282081379
30
0
10
306.00114414800913
20
-313.74144193415066
30
0
10
305.90492387467918
20
-321.70365586576884
30
0
10
307.67057022473909
20
-331.00696971065014
30
0
10
311.10985323118484
20
-341.51580168800604
30
0
10
315.07031614830498
20
-350.79373457102031
30
0
10
318.67385687427293
20
-358.20827264929761
30
0
10
321.35301934469976
20
-363.35067811680977
30
0
10
322.76180476554742
20
-365.97172852826168
30
0
0
SPLINE
5
105
100
AcDbEntity
8
0
100
AcDbSpline
70
1064
71
5
72
36
73
30
74
0
42
0.000000001
43
0.0000000001
44
0.0000000001
40
0
40
0
40
0
40
0
40
0
40
0
40
0.040000000000000001
40
0.080000000000000002
40
0.12
40
0.16
40
0.20000000000000001
40
0.24000000000000002
40
0.28000000000000003
40
0.32000000000000001
40
0.35999999999999999
40
0.39999999999999997
40
0.43999999999999995
40
0.47999999999999993
40
0.51999999999999991
40
0.55999999999999994
40
0.59999999999999998
40
0.64000000000000001
40
0.68000000000000005
40
0.72000000000000008
40
0.76000000000000012
40
0.80000000000000016
40
0.84000000000000019
40
0.88000000000000023
40
0.92000000000000026
40
0.9600000000000003
40
1
40
1
40
1
40
1
40
1
40
1
10
322.76180476554742
20
-365.97172852826168
30
0
10
320.79613065355886
20
-366.04136604307701
30
0
10
317.26580912154463
20
-366.5080809528302
30
0
10
313.17330323111207
20
-368.19038691332787
30
0
10
310.12976051877138
20
-372.40380266549266
30
0
10
310.26584278353795
20
-380.88261398071353
30
0
10
314.05017792775089
20
-392.31877323405649
30
0
10
320.81413878048784
20
-406.13365411115529
30
0
10
329.53304613427434
20
-421.43782050194488
30
0
10
338.99550405170226
20
-437.16798351994925
30
0
10
347.92802671274387
20
-452.18640743371998
30
0
10
355.13451998429565
20
-465.39325893906903
30
0
10
359.63432216016406
20
-475.83596934812277
30
0
10
360.79303208257022
20
-482.81637589427862
30
0
10
358.48590069060674
20
-486.01548313493987
30
0
10
353.17668958209322
20
-485.57635675168888
30
0
10
345.52249120340355
20
-481.9675444955941
30
0
10
336.09473439246915
20
-475.88497993515097
30
0
10
325.39909726515089
20
-468.17525879049953
30
0
10
313.86977477391423
20
-459.76206593205978
30
0
10
301.8731453606228
20
-451.57390061364509
30
0
10
289.70691225800243
20
-444.47004193500709
30
0
10
277.60122127820381
20
-439.17136994663235
30
0
10
265.71690571762963
20
-436.17530056917252
30
0
10
254.1570776796537
20
-435.78705529746804
30
0
10
242.98054811877083
20
-438.17042007985333
30
0
10
234.3673028112083
20
-442.34528075709534
30
0
10
228.09485953230876
20
-446.75506994366623
30
0
10
223.99634174204044
20
-450.26172567874085
30
0
10
221.96786068364122
20
-452.15675324445436
30
0
0
SPLINE
5
106
100
AcDbEntity
8
0
100
AcDbSpline
70
1064
71
5
72
36
73
30
74
0
42
0.000000001
43
0.0000000001
44
0.0000000001
40
0
40
0
40
0
40
0
40
0
40
0
40
0.040000000000000001
40
0.080000000000000002
40
0.12
40
0.16
40
0.20000000000000001
40
0.24000000000000002
40
0.28000000000000003
40
0.32000000000000001
40
0.35999999999999999
40
0.39999999999999997
40
0.43999999999999995
40
0.47999999999999993
40
0.51999999999999991
40
0.55999999999999994
40
0.59999999999999998
40
0.64000000000000001
40
0.68000000000000005
40
0.72000000000000008
40
0.76000000000000012
40
0.80000000000000016
40
0.84000000000000019
40
0.88000000000000023
40
0.92000000000000026
40
0.9600000000000003
40
1
40
1
40
1
40
1
40
1
40
1
10
221.96786068364122
20
-452.15675324445436
30
0
10
221.88342573237105
20
-452.54584007347887
30
0
10
221.74948708337979
20
-453.42481956992964
30
0
10
221.65355575038473
20
-455.04641190474115
30
0
10
221.73456008812494
20
-457.81023353627882
30
0
10
222.10457052602612
20
-462.03730583942109
30
0
10
222.46761051014096
20
-466.20685702530795
30
0
10
222.35525222018106
20
-468.98224304456932
30
0
10
221.27630552178209
20
-469.22434037625715
30
0
10
218.86677095693389
20
-466.66571909819226
30
0
10
214.91095902832538
20
-461.79379265013546
30
0
10
209.32309481463039
20
-455.49918021951333
30
0
10
202.14364450384841
20
-448.83206460747044
30
0
10
193.53502012537882
20
-442.6708473421694
30
0
10
183.76609661642067
20
-437.60675178007739
30
0
10
173.18126157443862
20
-434.02437256354483
30
0
10
162.17523194678836
20
-432.1276164518066
30
0
10
151.16634040011496
20
-431.98537868954702
30
0
10
140.57154922878971
20
-433.56601120298336
30
0
10
130.77974750344765
20
-436.77543700999991
30
0
10
122.12800942049931
20
-441.49009435569843
30
0
10
114.86927834883765
20
-447.59591080334758
30
0
10
109.17334930505615
20
-455.00013125355417
30
0
10
105.14720735373493
20
-463.62723565199474
30
0
10
102.84815271013511
20
-473.4193172143689
30
0
10
102.29858277024246
20
-484.33424371713647
30
0
10
103.25879011330764
20
-493.94237735645555
30
0
10
104.76227066589878
20
-501.63461504628697
30
0
10
106.11182705619592
20
-506.97827274310077
30
0
10
106.87341440323466
20
-509.70397638465772
30
0
0
SPLINE
5
107
100
AcDbEntity
8
0
100
AcDbSpline
70
1064
71
5
72
36
73
30
74
0
42
0.000000001
43
0.0000000001
44
0.0000000001
40
0
40
0
40
0
40
0
40
0
40
0
40
0.040000000000000001
40
0.080000000000000002
40
0.12
40
0.16
40
0.20000000000000001
40
0.24000000000000002
40
0.28000000000000003
40
0.32000000000000001
40
0.35999999999999999
40
0.39999999999999997
40
0.43999999999999995
40
0.47999999999999993
40
0.51999999999999991
40
0.55999999999999994
40
0.59999999999999998
40
0.64000000000000001
40
0.68000000000000005
40
0.72000000000000008
40
0.76000000000000012
40
0.80000000000000016
40
0.84000000000000019
40
0.88000000000000023
40
0.92000000000000026
40
0.9600000000000003
40
1
40
1
40
1
40
1
40
1
40
1
10
106.87341440323466
20
-509.70397638465772
30
0
10
106.53160674912669
20
-511.16924041125185
30
0
10
105.76148543917373
20
-513.59114203402555
30
0
10
104.3467034039214
20
-515.69856895053886
30
0
10
101.94050034939664
20
-515.44563842966477
30
0
10
98.016875933773321
20
-510.2442591095093
30
0
10
93.061526576086948
20
-500.79419519963346
30
0
10
86.934468244853463
20
-487.98947586743645
30
0
10
79.502910154102111
20
-472.88331572300342
30
0
10
70.678846594484739
20
-456.56615171792595
30
0
10
60.451452454368201
20
-440.06336066603512
30
0
10
48.931970281152964
20
-424.20543195088163
30
0
10
36.342836403461426
20
-409.62264781680472
30
0
10
22.98655983691209
20
-396.78471575091999
30
0
10
9.222441620288933
20
-386.02366413756147
30
0
10
-4.5586193122844758
20
-377.56127283321922
30
0
10
-17.958445182121828
20
-371.53262294674443
30
0
10
-30.594611429527312
20
-368.008587092536
30
0
10
-42.127788966467705
20
-367.018529642423
30
0
10
-52.274632541756183
20
-368.56505980009268
30
0
10
-60.803858230709267
20
-372.62928621893025
30
0
10
-67.537223462263242
20
-379.17736855368253
30
0
10
-72.350890493793202
20
-388.16506119525428
30
0
10
-75.174668793748168
20
-399.54232804067544
30
0
10
-75.976848843038724
20
-413.2591376002926
30
0
10
-74.752427143382249
20
-429.27023260807124
30
0
10
-72.159460208052423
20
-443.88547522500403
30
0
10
-69.313446504935456
20
-455.85221246536753
30
0
10
-67.016573880516091
20
-464.2756756986812
30
0
10
-65.768255017375182
20
-468.59881699879816
30
0
0
SPLINE
5
108
100
AcDbEntity
8
0
100
AcDbSpline
70
1064
71
5
72
26
73
20
74
0
42
0.000000001
43
0.0000000001
44
0.0000000001
40
0
40
0
40
0
40
0
40
0
40
0
40
0.066666666666666666
40
0.13333333333333333
40
0.20000000000000001
40
0.26666666666666666
40
0.33333333333333331
40
0.39999999999999997
40
0.46666666666666662
40
0.53333333333333333
40
0.59999999999999998
40
0.66666666666666663
40
0.73333333333333328
40
0.79999999999999993
40
0.86666666666666659
40
0.93333333333333324
40
1
40
1
40
1
40
1
40
1
40
1
10
-98.652382526062766
20
-583.69326327920476
30
0
10
-98.706436353989915
20
-582.09010996894801
30
0
10
-99.068098728042585
20
-578.58185776832568
30
0
10
-100.37124133273613
20
-572.41367343659113
30
0
10
-103.64125464562679
20
-562.36437269059661
30
0
10
-110.31548873114056
20
-546.79277540084729
30
0
10
-119.55876374145654
20
-528.44340699242616
30
0
10
-131.23577761063788
20
-507.90777594830581
30
0
10
-145.0306501349686
20
-486.27818134557504
30
0
10
-160.51747562166665
20
-464.96134578174406
30
0
10
-177.21290739588011
20
-445.52599346403838
30
0
10
-194.62694850320435
20
-429.54533289422301
30
0
10
-212.30983120808827
20
-418.43475090092505
30
0
10
-229.89652963027646
20
-413.28601464812442
30
0
10
-247.15784300321786
20
-414.65647378136049
30
0
10
-263.97026625972126
20
-422.72604453265569
30
0
10
-277.01955035209721
20
-434.51541787214421
30
0
10
-286.57697352337073
20
-446.30760148722112
30
0
10
-292.84730361682244
20
-455.47077147217692
30
0
10
-295.95714757818831
20
-460.37778512162623
30
0
0
SPLINE
5
109
100
AcDbEntity
8
0
100
AcDbSpline
70
1064
71
5
72
66
73
60
74
0
42
0.000000001
43
0.0000000001
44
0.0000000001
40
0
40
0
40
0
40
0
40
0
40
0
40
0.018181818181818181
40
0.036363636363636362
40
0.054545454545454543
40
0.072727272727272724
40
0.090909090909090912
40
0.1090909090909091
40
0.12727272727272729
40
0.14545454545454548
40
0.16363636363636366
40
0.18181818181818185
40
0.20000000000000004
40
0.21818181818181823
40
0.23636363636363641
40
0.25454545454545457
40
0.27272727272727276
40
0.29090909090909095
40
0.30909090909090914
40
0.32727272727272733
40
0.34545454545454551
40
0.3636363636363637
40
0.38181818181818189
40
0.40000000000000008
40
0.41818181818181827
40
0.43636363636363645
40
0.45454545454545464
40
0.47272727272727283
40
0.49090909090909102
40
0.50909090909090915
40
0.52727272727272734
40
0.54545454545454553
40
0.56363636363636371
40
0.5818181818181819
40
0.60000000000000009
40
0.61818181818181828
40
0.63636363636363646
40
0.65454545454545465
40
0.67272727272727284
40
0.69090909090909103
40
0.70909090909090922
40
0.7272727272727274
40
0.74545454545454559
40
0.76363636363636378
40
0.78181818181818197
40
0.80000000000000016
40
0.81818181818181834
40
0.83636363636363653
40
0.85454545454545472
40
0.87272727272727291
40
0.89090909090909109
40
0.90909090909090928
40
0.92727272727272747
40
0.94545454545454566
40
0.96363636363636385
40
0.98181818181818203
40
1
40
1
40
1
40
1
40
1
40
1
10
-295.95714757818831
20
-460.37778512162623
30
0
10
-295.39777983957157
20
-458.96301002497722
30
0
10
-294.31436239276951
20
-455.89412047999417
30
0
10
-292.79518934332299
20
-450.57277442942632
30
0
10
-290.98165397967188
20
-442.04079493898809
30
0
10
-289.07111740463665
20
-429.01509736618181
30
0
10
-287.5249827644094
20
-413.73756830819946
30
0
10
-286.3581614773031
20
-396.43382125217192
30
0
10
-285.59534437390113
20
-377.48170593735438
30
0
10
-285.27138657704603
20
-357.4635310413795
30
0
10
-285.44506245214444
20
-337.12933829593294
30
0
10
-286.21713057854782
20
-317.32792101407347
30
0
10
-287.74807551369116
20
-298.94867283886038
30
0
10
-290.27384224814557
20
-282.85902475571498
30
0
10
-294.12779319267793
20
-269.84378875381913
30
0
10
-299.74794317358561
20
-260.54338746174926
30
0
10
-307.72237890988646
20
-255.39259361866627
30
0
10
-318.61982388058681
20
-254.55256828823852
30
0
10
-332.72710709737464
20
-257.83261398486781
30
0
10
-349.84238965615504
20
-264.6276840038347
30
0
10
-368.98466867155838
20
-273.8179339062811
30
0
10
-388.32831599299016
20
-283.78097120097419
30
0
10
-405.72535849058556
20
-292.705692456816
30
0
10
-419.1052178684975
20
-298.84289460160664
30
0
10
-426.94733796960242
20
-300.79354661475998
30
0
10
-428.66769073528747
20
-297.75268473477257
30
0
10
-425.17976357613719
20
-289.84370247578732
30
0
10
-418.93423878510072
20
-278.18276105343989
30
0
10
-412.93080522915596
20
-264.40325257146503
30
0
10
-409.90450230301087
20
-250.28126202576871
30
0
10
-411.53386244297519
20
-237.35050008164168
30
0
10
-417.40647666277476
20
-226.44791570271553
30
0
10
-425.41866717689976
20
-217.70414151073138
30
0
10
-432.80864724556471
20
-210.71548990167642
30
0
10
-436.91662992778549
20
-204.66529102396873
30
0
10
-436.2117241150392
20
-198.4425321762044
30
0
10
-430.6493820780745
20
-190.84811530430585
30
0
10
-421.20585456330491
20
-180.97164870392191
30
0
10
-409.61176170097639
20
-168.47935141252037
30
0
10
-398.01925370147467
20
-154.04819056942719
30
0
10
-388.63456435840749
20
-139.10744003648242
30
0
10
-383.32352236264194
20
-125.33537499500784
30
0
10
-383.2016432192471
20
-114.21630462766976
30
0
10
-388.28528050046458
20
-106.61681802467713
30
0
10
-396.9793849832065
20
-102.24585649312417
30
0
10
-406.06533862579789
20
-99.505633938304868
30
0
10
-411.97810303288441
20
-96.368404681173629
30
0
10
-411.85263294563896
20
-91.066555752848785
30
0
10
-404.62668295270055
20
-82.833912754282068
30
0
10
-390.64482505746787
20
-71.685500580090448
30
0
10
-371.32350589249086
20
-58.238701826409383
30
0
10
-348.79224674110947
20
-43.518178978900757
30
0
10
-325.55314788392729
20
-28.772094940400482
30
0
10
-304.11946150633037
20
-15.276604360501558
30
0
10
-286.69673238625279
20
-4.1632298140331292
30
0
10
-274.76289978312889
20
3.8074227202395923
30
0
10
-270.16470362328437
20
7.3834455575848228
30
0
10
-269.60646378689097
20
8.4354941948870668
30
0
10
-270.51761360678137
20
8.4131503113904955
30
0
10
-271.29405194667265
20
8.2210318771718978
30
0
0
SPLINE
5
110
100
AcDbEntity
8
0
100
AcDbSpline
70
1064
71
5
72
80
73
74
74
0
42
0.000000001
43
0.0000000001
44
0.0000000001
40
0
40
0
40
0
40
0
40
0
40
0
40
0.014285714285714285
40
0.028571428571428571
40
0.042857142857142858
40
0.057142857142857141
40
0.071428571428571425
40
0.085714285714285715
40
0.10000000000000001
40
0.1142857142857143
40
0.12857142857142859
40
0.14285714285714288
40
0.15714285714285717
40
0.17142857142857146
40
0.18571428571428575
40
0.20000000000000004
40
0.21428571428571433
40
0.22857142857142862
40
0.24285714285714291
40
0.25714285714285717
40
0.27142857142857146
40
0.28571428571428575
40
0.30000000000000004
40
0.31428571428571433
40
0.32857142857142863
40
0.34285714285714292
40
0.35714285714285721
40
0.3714285714285715
40
0.38571428571428579
40
0.40000000000000008
40
0.41428571428571437
40
0.42857142857142866
40
0.44285714285714295
40
0.45714285714285724
40
0.47142857142857153
40
0.48571428571428582
40
0.50000000000000011
40
0.51428571428571435
40
0.52857142857142858
40
0.54285714285714282
40
0.55714285714285705
40
0.57142857142857129
40
0.58571428571428552
40
0.59999999999999976
40
0.61428571428571399
40
0.62857142857142823
40
0.64285714285714246
40
0.6571428571428567
40
0.67142857142857093
40
0.68571428571428517
40
0.6999999999999994
40
0.71428571428571364
40
0.72857142857142787
40
0.74285714285714211
40
0.75714285714285634
40
0.77142857142857058
40
0.78571428571428481
40
0.79999999999999905
40
0.81428571428571328
40
0.82857142857142752
40
0.84285714285714175
40
0.85714285714285599
40
0.87142857142857022
40
0.88571428571428445
40
0.89999999999999869
40
0.91428571428571292
40
0.92857142857142716
40
0.94285714285714139
40
0.95714285714285563
40
0.97142857142856986
40
0.98387389798276503
40
0.98387389798276503
40
0.98387389798276503
40
0.98387389798276503
40
0.98387389798276503
40
0.98387389798276503
10
189.08373317495364
20
509.70397638465772
30
0
10
187.47685861870426
20
507.56792655716225
30
0
10
184.75707594558162
20
503.49298078477744
30
0
10
182.15910568594052
20
497.97202053432613
30
0
10
181.66123460714812
20
491.79407818092221
30
0
10
185.79668921380872
20
486.03184254777892
30
0
10
194.15472293519298
20
482.19026070585733
30
0
10
205.59441313102849
20
480.18619592172848
30
0
10
218.55960678256213
20
479.88475533383246
30
0
10
231.46275736973871
20
481.09588053767874
30
0
10
243.03126739667189
20
483.56753427224726
30
0
10
252.61671853575109
20
486.98425492725573
30
0
10
260.65297725424261
20
490.95319511741286
30
0
10
268.44188144317496
20
495.042415695599
30
0
10
277.48023792693931
20
498.85556270414293
30
0
10
288.94599954590296
20
502.09208170360239
30
0
10
303.07060033424005
20
504.62165158482298
30
0
10
318.69982633453532
20
506.52864388308399
30
0
10
333.88315426907263
20
507.97423872762556
30
0
10
346.33993313325379
20
509.08393649222194
30
0
10
353.99206224501381
20
509.81505102941446
30
0
10
355.42288247336847
20
509.85607866634916
30
0
10
350.48496860989786
20
508.45163655953502
30
0
10
340.17578571906307
20
504.61549740776002
30
0
10
326.21711591823691
20
497.52284099089428
30
0
10
310.74034210499195
20
486.80393168967259
30
0
10
295.90666275881966
20
472.97765504487296
30
0
10
283.66117161119922
20
457.33553729175378
30
0
10
275.53415382489118
20
441.53995304258495
30
0
10
272.44010495808163
20
427.31667376938731
30
0
10
274.45037093513582
20
416.09663637590421
30
0
10
280.63714565423538
20
408.7067466706842
30
0
10
288.739219188905
20
404.97278054034979
30
0
10
295.34012558612562
20
403.5631604470197
30
0
10
297.4096160022047
20
402.60448706189447
30
0
10
293.9598420279633
20
400.19852874545785
30
0
10
286.626383471873
20
394.88641315543765
30
0
10
278.13541703493615
20
385.87675551118912
30
0
10
271.1927275484482
20
373.36547651226573
30
0
10
267.35912725727201
20
358.72798992841581
30
0
10
267.29419389751911
20
343.92817286983933
30
0
10
270.83677151708247
20
331.02208955019728
30
0
10
277.1398085643952
20
321.59042744878116
30
0
10
284.80125650417432
20
316.28205277851276
30
0
10
291.94437080224031
20
314.10189750878754
30
0
10
296.60170811708576
20
312.97822187612809
30
0
10
297.1879234440994
20
310.76924970808602
30
0
10
293.0116926311515
20
306.24623380394547
30
0
10
284.18143418061379
20
299.047201671469
30
0
10
271.39037889687938
20
289.40129665431624
30
0
10
255.74162328986094
20
277.93034947119349
30
0
10
238.56471356285138
20
265.43150992539552
30
0
10
221.2174474506833
20
252.63651858747056
30
0
10
204.96654994685167
20
240.10326440767417
30
0
10
190.96136844971733
20
228.26392929466232
30
0
10
180.18203631432399
20
217.43133348954973
30
0
10
173.39925688198929
20
207.82206258760573
30
0
10
171.12551441659338
20
199.57249392204201
30
0
10
173.57731059082357
20
192.7571895553358
30
0
10
180.61272865894927
20
187.4075774356441
30
0
10
191.77545189285229
20
183.52346806559197
30
0
10
206.39737337309907
20
181.08009114898624
30
0
10
223.68196013750125
20
180.0364337910608
30
0
10
242.79718603895117
20
180.34315102751316
30
0
10
262.95996215681464
20
181.95028273185943
30
0
10
283.53548675978493
20
184.81596105810939
30
0
10
304.03465758978541
20
188.90684665127569
30
0
10
324.09080177656733
20
194.19681856363397
30
0
10
343.4436921358448
20
200.66626994513535
30
0
10
361.44459705663496
20
208.10443385940056
30
0
10
375.01690335593287
20
214.88187413531676
30
0
10
384.6599581052468
20
220.38290086269041
30
0
10
390.76266431010282
20
224.16913254760146
30
0
10
393.56442458018074
20
225.97549276708389
30
0
0
SPLINE
5
111
100
AcDbEntity
8
0
100
AcDbSpline
70
1064
71
5
72
35
73
29
74
0
42
0.000000001
43
0.0000000001
44
0.0000000001
40
0.047078899747473847
40
0.047078899747473847
40
0.047078899747473847
40
0.047078899747473847
40
0.047078899747473847
40
0.047078899747473847
40
0.080000000000000002
40
0.12
40
0.16
40
0.20000000000000001
40
0.24000000000000002
40
0.28000000000000003
40
0.32000000000000001
40
0.35999999999999999
40
0.39999999999999997
40
0.43999999999999995
40
0.47999999999999993
40
0.51999999999999991
40
0.55999999999999994
40
0.59999999999999998
40
0.64000000000000001
40
0.68000000000000005
40
0.72000000000000008
40
0.76000000000000012
40
0.80000000000000016
40
0.84000000000000019
40
0.88000000000000023
40
0.92000000000000026
40
0.9600000000000003
40
1
40
1
40
1
40
1
40
1
40
1
10
393.56442154847264
20
225.97548964086621
30
0
10
391.50505140582544
20
224.13378975706863
30
0
10
387.243111317694
20
219.97513584142493
30
0
10
381.67218176483544
20
213.26480843251647
30
0
10
376.2901877478626
20
203.62168064221933
30
0
10
373.18411841212423
20
190.59470790567104
30
0
10
373.88547888838281
20
176.37403726365528
30
0
10
378.33875123999144
20
161.81280626923581
30
0
10
386.24050505252677
20
147.49738011562792
30
0
10
397.12283247340258
20
134.2413460471698
30
0
10
410.37436571480868
20
122.90638723843344
30
0
10
425.25073739860198
20
114.24517534551077
30
0
10
440.88954583981536
20
108.74173887560667
30
0
10
456.31436268485521
20
106.43231478825319
30
0
10
470.45771417071813
20
106.76869334606599
30
0
10
482.13383585593925
20
108.35394239194223
30
0
10
490.2642912096004
20
109.29811817997162
30
0
10
494.21533057641716
20
107.83738907820467
30
0
10
494.09676580491293
20
102.85877799284499
30
0
10
491.10530970578617
20
94.494552325453398
30
0
10
487.073563949652
20
83.683501888422654
30
0
10
484.0241697776072
20
71.734627425330913
30
0
10
483.69012656585664
20
59.864092525630952
30
0
10
487.15263845740208
20
48.838139975085866
30
0
10
495.0351225978909
20
39.11291530610459
30
0
10
505.09865052210034
20
32.544325804142019
30
0
10
514.7906679734657
20
28.328243636079137
30
0
10
522.20249845107332
20
25.832339189591828
30
0
10
526.14604013900146
20
24.663095631515692
30
0
0
SPLINE
5
112
100
AcDbEntity
8
0
100
AcDbSpline
70
1064
71
5
72
21
73
15
74
0
42
0.000000001
43
0.0000000001
44
0.0000000001
40
0
40
0
40
0
40
0
40
0
40
0
40
0.10000000000000001
40
0.20000000000000001
40
0.30000000000000004
40
0.40000000000000002
40
0.5
40
0.59999999999999998
40
0.69999999999999996
40
0.79999999999999993
40
0.89999999999999991
40
0.9927032576900674
40
0.9927032576900674
40
0.9927032576900674
40
0.9927032576900674
40
0.9927032576900674
40
0.9927032576900674
10
-65.768255017375182
20
-468.59881699879816
30
0
10
-67.449572164391697
20
-469.22683275599832
30
0
10
-70.712438304649169
20
-470.64600767740433
30
0
10
-75.307457689245311
20
-473.26415999587789
30
0
10
-80.825527292895956
20
-477.75026531973151
30
0
10
-86.653450113360449
20
-485.10703888756473
30
0
10
-91.353651107463946
20
-494.30789169268814
30
0
10
-94.913551977998594
20
-505.37339208469069
30
0
10
-97.410296632307976
20
-518.17739239622574
30
0
10
-98.952173875020165
20
-532.5428160365957
30
0
10
-99.638623019295935
20
-548.06062094262961
30
0
10
-99.601650516435683
20
-561.38403515613641
30
0
10
-99.272419441007258
20
-571.80800991855153
30
0
10
-98.927120648841935
20
-578.88091096082553
30
0
10
-98.731292383970484
20
-582.332045961821
30
0
0
CIRCLE
5
113
100
AcDbEntity
8
0
100
AcDbCircle
10
0
20
0
30
0
40
5
0
CIRCLE
5
114
100
AcDbEntity
8
0
100
AcDbCircle
10
0
20
0
30
0
40
5
0
CIRCLE
5
115
100
AcDbEntity
8
0
100
AcDbCircle
10
50
20
0
30
0
40
5
0
CIRCLE
5
116
100
AcDbEntity
8
0
100
AcDbCircle
10
100
20
0
30
0
40
5
0
CIRCLE
5
117
100
AcDbEntity
8
0
100
AcDbCircle
10
250
20
0
30
0
40
5
0
CIRCLE
5
118
100
AcDbEntity
8
0
100
AcDbCircle
10
200
20
0
30
0
40
5
0
CIRCLE
5
119
100
AcDbEntity
8
0
100
AcDbCircle
10
150
20
0
30
0
40
5
0
CIRCLE
5
120
100
AcDbEntity
8
0
100
AcDbCircle
10
250
20
50
30
0
40
5
0
CIRCLE
5
121
100
AcDbEntity
8
0
100
AcDbCircle
10
150
20
50
30
0
40
5
0
CIRCLE
5
122
100
AcDbEntity
8
0
100
AcDbCircle
10
100
20
50
30
0
40
5
0
CIRCLE
5
123
100
AcDbEntity
8
0
100
AcDbCircle
10
50
20
50
30
0
40
5
0
CIRCLE
5
124
100
AcDbEntity
8
0
100
AcDbCircle
10
0
20
50
30
0
40
5
0
CIRCLE
5
125
100
AcDbEntity
8
0
100
AcDbCircle
10
200
20
50
30
0
40
5
0
CIRCLE
5
126
100
AcDbEntity
8
0
100
AcDbCircle
10
350
20
50
30
0
40
5
0
CIRCLE
5
127
100
AcDbEntity
8
0
100
AcDbCircle
10
350
20
0
30
0
40
5
0
CIRCLE
5
128
100
AcDbEntity
8
0
100
AcDbCircle
10
300
20
0
30
0
40
5
0
CIRCLE
5
129
100
AcDbEntity
8
0
100
AcDbCircle
10
300
20
50
30
0
40
5
0
CIRCLE
5
130
100
AcDbEntity
8
0
100
AcDbCircle
10
-50
20
0
30
0
40
5
0
CIRCLE
5
131
100
AcDbEntity
8
0
100
AcDbCircle
10
-50
20
50
30
0
40
5
0
CIRCLE
5
132
100
AcDbEntity
8
0
100
AcDbCircle
10
-100
20
50
30
0
40
5
0
CIRCLE
5
133
100
AcDbEntity
8
0
100
AcDbCircle
10
-100
20
0
30
0
40
5
0
CIRCLE
5
134
100
AcDbEntity
8
0
100
AcDbCircle
10
-150
20
50
30
0
40
5
0
CIRCLE
5
135
100
AcDbEntity
8
0
100
AcDbCircle
10
-150
20
0
30
0
40
5
0
CIRCLE
5
136
100
AcDbEntity
8
0
100
AcDbCircle
10
-200
20
50
30
0
40
5
0
CIRCLE
5
137
100
AcDbEntity
8
0
100
AcDbCircle
10
-200
20
0
30
0
40
5
0
CIRCLE
5
138
100
AcDbEntity
8
0
100
AcDbCircle
10
100
20
150
30
0
40
5
0
CIRCLE
5
139
100
AcDbEntity
8
0
100
AcDbCircle
10
100
20
100
30
0
40
5
0
CIRCLE
5
140
100
AcDbEntity
8
0
100
AcDbCircle
10
50
20
150
30
0
40
5
0
CIRCLE
5
141
100
AcDbEntity
8
0
100
AcDbCircle
10
50
20
100
30
0
40
5
0
CIRCLE
5
142
100
AcDbEntity
8
0
100
AcDbCircle
10
0
20
150
30
0
40
5
0
CIRCLE
5
143
100
AcDbEntity
8
0
100
AcDbCircle
10
0
20
100
30
0
40
5
0
CIRCLE
5
144
100
AcDbEntity
8
0
100
AcDbCircle
10
-50
20
150
30
0
40
5
0
CIRCLE
5
145
100
AcDbEntity
8
0
100
AcDbCircle
10
-50
20
100
30
0
40
5
0
CIRCLE
5
146
100
AcDbEntity
8
0
100
AcDbCircle
10
-100
20
150
30
0
40
5
0
CIRCLE
5
147
100
AcDbEntity
8
0
100
AcDbCircle
10
-100
20
100
30
0
40
5
0
CIRCLE
5
148
100
AcDbEntity
8
0
100
AcDbCircle
10
-150
20
150
30
0
40
5
0
CIRCLE
5
149
100
AcDbEntity
8
0
100
AcDbCircle
10
-150
20
100
30
0
40
5
0
CIRCLE
5
150
100
AcDbEntity
8
0
100
AcDbCircle
10
-200
20
150
30
0
40
5
0
CIRCLE
5
151
100
AcDbEntity
8
0
100
AcDbCircle
10
-200
20
100
30
0
40
5
0
CIRCLE
5
152
100
AcDbEntity
8
0
100
AcDbCircle
10
100
20
350
30
0
40
5
0
CIRCLE
5
153
100
AcDbEntity
8
0
100
AcDbCircle
10
100
20
300
30
0
40
5
0
CIRCLE
5
154
100
AcDbEntity
8
0
100
AcDbCircle
10
100
20
250
30
0
40
5
0
CIRCLE
5
155
100
AcDbEntity
8
0
100
AcDbCircle
10
100
20
200
30
0
40
5
0
CIRCLE
5
156
100
AcDbEntity
8
0
100
AcDbCircle
10
50
20
350
30
0
40
5
0
CIRCLE
5
157
100
AcDbEntity
8
0
100
AcDbCircle
10
50
20
300
30
0
40
5
0
CIRCLE
5
158
100
AcDbEntity
8
0
100
AcDbCircle
10
50
20
250
30
0
40
5
0
CIRCLE
5
159
100
AcDbEntity
8
0
100
AcDbCircle
10
50
20
200
30
0
40
5
0
CIRCLE
5
160
100
AcDbEntity
8
0
100
AcDbCircle
10
0
20
350
30
0
40
5
0
CIRCLE
5
161
100
AcDbEntity
8
0
100
AcDbCircle
10
0
20
300
30
0
40
5
0
CIRCLE
5
162
100
AcDbEntity
8
0
100
AcDbCircle
10
0
20
250
30
0
40
5
0
CIRCLE
5
163
100
AcDbEntity
8
0
100
AcDbCircle
10
0
20
200
30
0
40
5
0
CIRCLE
5
164
100
AcDbEntity
8
0
100
AcDbCircle
10
-50
20
300
30
0
40
5
0
CIRCLE
5
165
100
AcDbEntity
8
0
100
AcDbCircle
10
-50
20
250
30
0
40
5
0
CIRCLE
5
166
100
AcDbEntity
8
0
100
AcDbCircle
10
-50
20
200
30
0
40
5
0
CIRCLE
5
167
100
AcDbEntity
8
0
100
AcDbCircle
10
-100
20
300
30
0
40
5
0
CIRCLE
5
168
100
AcDbEntity
8
0
100
AcDbCircle
10
-100
20
250
30
0
40
5
0
CIRCLE
5
169
100
AcDbEntity
8
0
100
AcDbCircle
10
-100
20
200
30
0
40
5
0
CIRCLE
5
170
100
AcDbEntity
8
0
100
AcDbCircle
10
-150
20
200
30
0
40
5
0
CIRCLE
5
171
100
AcDbEntity
8
0
100
AcDbCircle
10
-200
20
200
30
0
40
5
0
CIRCLE
5
172
100
AcDbEntity
8
0
100
AcDbCircle
10
50
20
-350
30
0
40
5
0
CIRCLE
5
173
100
AcDbEntity
8
0
100
AcDbCircle
10
100
20
-250
30
0
40
5
0
CIRCLE
5
174
100
AcDbEntity
8
0
100
AcDbCircle
10
100
20
-50
30
0
40
5
0
CIRCLE
5
175
100
AcDbEntity
8
0
100
AcDbCircle
10
50
20
-150
30
0
40
5
0
CIRCLE
5
176
100
AcDbEntity
8
0
100
AcDbCircle
10
50
20
-200
30
0
40
5
0
CIRCLE
5
177
100
AcDbEntity
8
0
100
AcDbCircle
10
100
20
-150
30
0
40
5
0
CIRCLE
5
178
100
AcDbEntity
8
0
100
AcDbCircle
10
100
20
-200
30
0
40
5
0
CIRCLE
5
179
100
AcDbEntity
8
0
100
AcDbCircle
10
100
20
-350
30
0
40
5
0
CIRCLE
5
180
100
AcDbEntity
8
0
100
AcDbCircle
10
50
20
-300
30
0
40
5
0
CIRCLE
5
181
100
AcDbEntity
8
0
100
AcDbCircle
10
50
20
-50
30
0
40
5
0
CIRCLE
5
182
100
AcDbEntity
8
0
100
AcDbCircle
10
0
20
-50
30
0
40
5
0
CIRCLE
5
183
100
AcDbEntity
8
0
100
AcDbCircle
10
50
20
-250
30
0
40
5
0
CIRCLE
5
184
100
AcDbEntity
8
0
100
AcDbCircle
10
100
20
-300
30
0
40
5
0
CIRCLE
5
185
100
AcDbEntity
8
0
100
AcDbCircle
10
0
20
-150
30
0
40
5
0
CIRCLE
5
186
100
AcDbEntity
8
0
100
AcDbCircle
10
0
20
-200
30
0
40
5
0
CIRCLE
5
187
100
AcDbEntity
8
0
100
AcDbCircle
10
0
20
-300
30
0
40
5
0
CIRCLE
5
188
100
AcDbEntity
8
0
100
AcDbCircle
10
-200
20
-100
30
0
40
5
0
CIRCLE
5
189
100
AcDbEntity
8
0
100
AcDbCircle
10
-150
20
-200
30
0
40
5
0
CIRCLE
5
190
100
AcDbEntity
8
0
100
AcDbCircle
10
100
20
-100
30
0
40
5
0
CIRCLE
5
191
100
AcDbEntity
8
0
100
AcDbCircle
10
0
20
-250
30
0
40
5
0
CIRCLE
5
192
100
AcDbEntity
8
0
100
AcDbCircle
10
-50
20
-200
30
0
40
5
0
CIRCLE
5
193
100
AcDbEntity
8
0
100
AcDbCircle
10
-100
20
-100
30
0
40
5
0
CIRCLE
5
194
100
AcDbEntity
8
0
100
AcDbCircle
10
-50
20
-250
30
0
40
5
0
CIRCLE
5
195
100
AcDbEntity
8
0
100
AcDbCircle
10
-100
20
-200
30
0
40
5
0
CIRCLE
5
196
100
AcDbEntity
8
0
100
AcDbCircle
10
-200
20
-150
30
0
40
5
0
CIRCLE
5
197
100
AcDbEntity
8
0
100
AcDbCircle
10
-150
20
-50
30
0
40
5
0
CIRCLE
5
198
100
AcDbEntity
8
0
100
AcDbCircle
10
-100
20
-50
30
0
40
5
0
CIRCLE
5
199
100
AcDbEntity
8
0
100
AcDbCircle
10
0
20
-100
30
0
40
5
0
CIRCLE
5
200
100
AcDbEntity
8
0
100
AcDbCircle
10
-50
20
-150
30
0
40
5
0
CIRCLE
5
201
100
AcDbEntity
8
0
100
AcDbCircle
10
-150
20
-100
30
0
40
5
0
CIRCLE
5
202
100
AcDbEntity
8
0
100
AcDbCircle
10
-150
20
-150
30
0
40
5
0
CIRCLE
5
203
100
AcDbEntity
8
0
100
AcDbCircle
10
50
20
-100
30
0
40
5
0
CIRCLE
5
204
100
AcDbEntity
8
0
100
AcDbCircle
10
-100
20
-250
30
0
40
5
0
CIRCLE
5
205
100
AcDbEntity
8
0
100
AcDbCircle
10
-50
20
-100
30
0
40
5
0
CIRCLE
5
206
100
AcDbEntity
8
0
100
AcDbCircle
10
-50
20
-50
30
0
40
5
0
CIRCLE
5
207
100
AcDbEntity
8
0
100
AcDbCircle
10
-200
20
-50
30
0
40
5
0
CIRCLE
5
208
100
AcDbEntity
8
0
100
AcDbCircle
10
-50
20
-300
30
0
40
5
0
CIRCLE
5
209
100
AcDbEntity
8
0
100
AcDbCircle
10
-100
20
-150
30
0
40
5
0
CIRCLE
5
210
100
AcDbEntity
8
0
100
AcDbCircle
10
150
20
100
30
0
40
5
0
CIRCLE
5
211
100
AcDbEntity
8
0
100
AcDbCircle
10
200
20
100
30
0
40
5
0
CIRCLE
5
212
100
AcDbEntity
8
0
100
AcDbCircle
10
250
20
100
30
0
40
5
0
CIRCLE
5
213
100
AcDbEntity
8
0
100
AcDbCircle
10
300
20
100
30
0
40
5
0
CIRCLE
5
214
100
AcDbEntity
8
0
100
AcDbCircle
10
250
20
-50
30
0
40
5
0
CIRCLE
5
215
100
AcDbEntity
8
0
100
AcDbCircle
10
200
20
-50
30
0
40
5
0
CIRCLE
5
216
100
AcDbEntity
8
0
100
AcDbCircle
10
150
20
-50
30
0
40
5
0
CIRCLE
5
217
100
AcDbEntity
8
0
100
AcDbCircle
10
300
20
-50
30
0
40
5
0
CIRCLE
5
218
100
AcDbEntity
8
0
100
AcDbCircle
10
100
20
400
30
0
40
5
0
CIRCLE
5
219
100
AcDbEntity
8
0
100
AcDbCircle
10
50
20
400
30
0
40
5
0
CIRCLE
5
220
100
AcDbEntity
8
0
100
AcDbCircle
10
-150
20
250
30
0
40
5
0
ENDSEC
0
SECTION
2
OBJECTS
0
DICTIONARY
5
C
100
AcDbDictionary
3
ACAD_GROUP
350
D
3
ACAD_MLINESTYLE
350
17
0
DICTIONARY
5
D
100
AcDbDictionary
0
DICTIONARY
5
1A
330
C
100
AcDbDictionary
0
DICTIONARY
5
17
100
AcDbDictionary
0
ENDSEC
0
EOF
